ISO-10303-21;
HEADER;
/* Generated by software containing ST-Developer
 * from STEP Tools, Inc. (www.steptools.com) 
 */
/* OPTION: using custom renumber hook */

FILE_DESCRIPTION(
/* description */ ('STEP AP242',
'CAx-IF Rec.Pracs.---Representation and Presentation of Product Manufa
cturing Information (PMI)---4.0---2014-10-13',
'CAx-IF Rec.Pracs.---3D Tessellated Geometry---0.4---2014-09-14','2;1'),

/* implementation_level */ '2;1');

FILE_NAME(
/* name */ '681f75e988f8237c677e7b06',
/* time_stamp */ '2025-05-10T15:51:06Z',
/* author */ (''),
/* organization */ (''),
/* preprocessor_version */ 'ST-DEVELOPER v20',
/* originating_system */ 'ONSHAPE BY PTC INC, 1.197',
/* authorisation */ '  ');

FILE_SCHEMA (('AP242_MANAGED_MODEL_BASED_3D_ENGINEERING_MIM_LF { 1 0 10303 442 1 1 4 }'));
ENDSEC;

DATA;
#10=SHAPE_REPRESENTATION_RELATIONSHIP('','',#249,#11);
#11=ADVANCED_BREP_SHAPE_REPRESENTATION('',(#247),#399);
#12=CYLINDRICAL_SURFACE('',#263,0.006);
#13=CYLINDRICAL_SURFACE('',#266,0.008);
#14=CIRCLE('',#262,0.008);
#15=CIRCLE('',#264,0.006);
#16=CIRCLE('',#265,0.006);
#17=CIRCLE('',#267,0.008);
#18=ORIENTED_EDGE('',*,*,#74,.F.);
#19=ORIENTED_EDGE('',*,*,#75,.F.);
#20=ORIENTED_EDGE('',*,*,#76,.T.);
#21=ORIENTED_EDGE('',*,*,#77,.T.);
#22=ORIENTED_EDGE('',*,*,#78,.T.);
#23=ORIENTED_EDGE('',*,*,#79,.F.);
#24=ORIENTED_EDGE('',*,*,#80,.F.);
#25=ORIENTED_EDGE('',*,*,#75,.T.);
#26=ORIENTED_EDGE('',*,*,#81,.T.);
#27=ORIENTED_EDGE('',*,*,#82,.F.);
#28=ORIENTED_EDGE('',*,*,#83,.F.);
#29=ORIENTED_EDGE('',*,*,#79,.T.);
#30=ORIENTED_EDGE('',*,*,#84,.F.);
#31=ORIENTED_EDGE('',*,*,#77,.F.);
#32=ORIENTED_EDGE('',*,*,#85,.T.);
#33=ORIENTED_EDGE('',*,*,#82,.T.);
#34=ORIENTED_EDGE('',*,*,#76,.F.);
#35=ORIENTED_EDGE('',*,*,#80,.T.);
#36=ORIENTED_EDGE('',*,*,#83,.T.);
#37=ORIENTED_EDGE('',*,*,#85,.F.);
#38=ORIENTED_EDGE('',*,*,#86,.F.);
#39=ORIENTED_EDGE('',*,*,#87,.T.);
#40=ORIENTED_EDGE('',*,*,#88,.T.);
#41=ORIENTED_EDGE('',*,*,#89,.T.);
#42=ORIENTED_EDGE('',*,*,#74,.T.);
#43=ORIENTED_EDGE('',*,*,#84,.T.);
#44=ORIENTED_EDGE('',*,*,#81,.F.);
#45=ORIENTED_EDGE('',*,*,#78,.F.);
#46=ORIENTED_EDGE('',*,*,#87,.F.);
#47=ORIENTED_EDGE('',*,*,#90,.F.);
#48=ORIENTED_EDGE('',*,*,#91,.T.);
#49=ORIENTED_EDGE('',*,*,#92,.T.);
#50=ORIENTED_EDGE('',*,*,#86,.T.);
#51=ORIENTED_EDGE('',*,*,#93,.F.);
#52=ORIENTED_EDGE('',*,*,#94,.F.);
#53=ORIENTED_EDGE('',*,*,#90,.T.);
#54=ORIENTED_EDGE('',*,*,#89,.F.);
#55=ORIENTED_EDGE('',*,*,#95,.F.);
#56=ORIENTED_EDGE('',*,*,#96,.T.);
#57=ORIENTED_EDGE('',*,*,#93,.T.);
#58=ORIENTED_EDGE('',*,*,#88,.F.);
#59=ORIENTED_EDGE('',*,*,#92,.F.);
#60=ORIENTED_EDGE('',*,*,#97,.T.);
#61=ORIENTED_EDGE('',*,*,#95,.T.);
#62=ORIENTED_EDGE('',*,*,#98,.F.);
#63=ORIENTED_EDGE('',*,*,#91,.F.);
#64=ORIENTED_EDGE('',*,*,#94,.T.);
#65=ORIENTED_EDGE('',*,*,#96,.F.);
#66=ORIENTED_EDGE('',*,*,#97,.F.);
#67=ORIENTED_EDGE('',*,*,#99,.T.);
#68=ORIENTED_EDGE('',*,*,#100,.T.);
#69=ORIENTED_EDGE('',*,*,#101,.F.);
#70=ORIENTED_EDGE('',*,*,#98,.T.);
#71=ORIENTED_EDGE('',*,*,#99,.F.);
#72=ORIENTED_EDGE('',*,*,#101,.T.);
#73=ORIENTED_EDGE('',*,*,#100,.F.);
#74=EDGE_CURVE('',#102,#103,#122,.T.);
#75=EDGE_CURVE('',#104,#102,#123,.T.);
#76=EDGE_CURVE('',#104,#105,#124,.T.);
#77=EDGE_CURVE('',#105,#103,#125,.T.);
#78=EDGE_CURVE('',#102,#106,#126,.T.);
#79=EDGE_CURVE('',#107,#106,#127,.T.);
#80=EDGE_CURVE('',#104,#107,#128,.T.);
#81=EDGE_CURVE('',#106,#108,#129,.T.);
#82=EDGE_CURVE('',#109,#108,#130,.T.);
#83=EDGE_CURVE('',#107,#109,#131,.T.);
#84=EDGE_CURVE('',#103,#108,#132,.T.);
#85=EDGE_CURVE('',#105,#109,#133,.T.);
#86=EDGE_CURVE('',#110,#111,#134,.T.);
#87=EDGE_CURVE('',#110,#112,#135,.T.);
#88=EDGE_CURVE('',#112,#113,#136,.T.);
#89=EDGE_CURVE('',#113,#111,#137,.T.);
#90=EDGE_CURVE('',#114,#110,#138,.T.);
#91=EDGE_CURVE('',#114,#115,#139,.T.);
#92=EDGE_CURVE('',#115,#112,#140,.T.);
#93=EDGE_CURVE('',#116,#111,#141,.T.);
#94=EDGE_CURVE('',#114,#116,#142,.T.);
#95=EDGE_CURVE('',#117,#113,#143,.T.);
#96=EDGE_CURVE('',#117,#116,#144,.T.);
#97=EDGE_CURVE('',#115,#117,#145,.T.);
#98=EDGE_CURVE('',#118,#118,#14,.T.);
#99=EDGE_CURVE('',#119,#119,#15,.T.);
#100=EDGE_CURVE('',#120,#120,#16,.F.);
#101=EDGE_CURVE('',#121,#121,#17,.T.);
#102=VERTEX_POINT('',#337);
#103=VERTEX_POINT('',#338);
#104=VERTEX_POINT('',#340);
#105=VERTEX_POINT('',#342);
#106=VERTEX_POINT('',#346);
#107=VERTEX_POINT('',#348);
#108=VERTEX_POINT('',#352);
#109=VERTEX_POINT('',#354);
#110=VERTEX_POINT('',#362);
#111=VERTEX_POINT('',#363);
#112=VERTEX_POINT('',#365);
#113=VERTEX_POINT('',#367);
#114=VERTEX_POINT('',#371);
#115=VERTEX_POINT('',#373);
#116=VERTEX_POINT('',#377);
#117=VERTEX_POINT('',#381);
#118=VERTEX_POINT('',#387);
#119=VERTEX_POINT('',#390);
#120=VERTEX_POINT('',#392);
#121=VERTEX_POINT('',#395);
#122=LINE('',#336,#146);
#123=LINE('',#339,#147);
#124=LINE('',#341,#148);
#125=LINE('',#343,#149);
#126=LINE('',#345,#150);
#127=LINE('',#347,#151);
#128=LINE('',#349,#152);
#129=LINE('',#351,#153);
#130=LINE('',#353,#154);
#131=LINE('',#355,#155);
#132=LINE('',#357,#156);
#133=LINE('',#358,#157);
#134=LINE('',#361,#158);
#135=LINE('',#364,#159);
#136=LINE('',#366,#160);
#137=LINE('',#368,#161);
#138=LINE('',#370,#162);
#139=LINE('',#372,#163);
#140=LINE('',#374,#164);
#141=LINE('',#376,#165);
#142=LINE('',#378,#166);
#143=LINE('',#380,#167);
#144=LINE('',#382,#168);
#145=LINE('',#384,#169);
#146=VECTOR('',#274,1.);
#147=VECTOR('',#275,1.);
#148=VECTOR('',#276,1.);
#149=VECTOR('',#277,1.);
#150=VECTOR('',#280,1.);
#151=VECTOR('',#281,1.);
#152=VECTOR('',#282,1.);
#153=VECTOR('',#285,1.);
#154=VECTOR('',#286,1.);
#155=VECTOR('',#287,1.);
#156=VECTOR('',#290,1.);
#157=VECTOR('',#291,1.);
#158=VECTOR('',#296,1.);
#159=VECTOR('',#297,1.);
#160=VECTOR('',#298,1.);
#161=VECTOR('',#299,1.);
#162=VECTOR('',#302,1.);
#163=VECTOR('',#303,1.);
#164=VECTOR('',#304,1.);
#165=VECTOR('',#307,1.);
#166=VECTOR('',#308,1.);
#167=VECTOR('',#311,1.);
#168=VECTOR('',#312,1.);
#169=VECTOR('',#315,1.);
#170=EDGE_LOOP('',(#18,#19,#20,#21));
#171=EDGE_LOOP('',(#22,#23,#24,#25));
#172=EDGE_LOOP('',(#26,#27,#28,#29));
#173=EDGE_LOOP('',(#30,#31,#32,#33));
#174=EDGE_LOOP('',(#34,#35,#36,#37));
#175=EDGE_LOOP('',(#38,#39,#40,#41));
#176=EDGE_LOOP('',(#42,#43,#44,#45));
#177=EDGE_LOOP('',(#46,#47,#48,#49));
#178=EDGE_LOOP('',(#50,#51,#52,#53));
#179=EDGE_LOOP('',(#54,#55,#56,#57));
#180=EDGE_LOOP('',(#58,#59,#60,#61));
#181=EDGE_LOOP('',(#62));
#182=EDGE_LOOP('',(#63,#64,#65,#66));
#183=EDGE_LOOP('',(#67));
#184=EDGE_LOOP('',(#68));
#185=EDGE_LOOP('',(#69));
#186=EDGE_LOOP('',(#70));
#187=EDGE_LOOP('',(#71));
#188=EDGE_LOOP('',(#72));
#189=EDGE_LOOP('',(#73));
#190=FACE_BOUND('',#170,.T.);
#191=FACE_BOUND('',#171,.T.);
#192=FACE_BOUND('',#172,.T.);
#193=FACE_BOUND('',#173,.T.);
#194=FACE_BOUND('',#174,.T.);
#195=FACE_BOUND('',#175,.T.);
#196=FACE_BOUND('',#176,.T.);
#197=FACE_BOUND('',#177,.T.);
#198=FACE_BOUND('',#178,.T.);
#199=FACE_BOUND('',#179,.T.);
#200=FACE_BOUND('',#180,.T.);
#201=FACE_BOUND('',#181,.T.);
#202=FACE_BOUND('',#182,.T.);
#203=FACE_BOUND('',#183,.T.);
#204=FACE_BOUND('',#184,.T.);
#205=FACE_BOUND('',#185,.T.);
#206=FACE_BOUND('',#186,.T.);
#207=FACE_BOUND('',#187,.T.);
#208=FACE_BOUND('',#188,.T.);
#209=FACE_BOUND('',#189,.T.);
#210=PLANE('',#251);
#211=PLANE('',#252);
#212=PLANE('',#253);
#213=PLANE('',#254);
#214=PLANE('',#255);
#215=PLANE('',#256);
#216=PLANE('',#257);
#217=PLANE('',#258);
#218=PLANE('',#259);
#219=PLANE('',#260);
#220=PLANE('',#261);
#221=PLANE('',#268);
#222=PLANE('',#269);
#223=ADVANCED_FACE('',(#190),#210,.T.);
#224=ADVANCED_FACE('',(#191),#211,.F.);
#225=ADVANCED_FACE('',(#192),#212,.F.);
#226=ADVANCED_FACE('',(#193),#213,.T.);
#227=ADVANCED_FACE('',(#194),#214,.T.);
#228=ADVANCED_FACE('',(#195,#196),#215,.F.);
#229=ADVANCED_FACE('',(#197),#216,.T.);
#230=ADVANCED_FACE('',(#198),#217,.F.);
#231=ADVANCED_FACE('',(#199),#218,.T.);
#232=ADVANCED_FACE('',(#200),#219,.T.);
#233=ADVANCED_FACE('',(#201,#202),#220,.T.);
#234=ADVANCED_FACE('',(#203,#204),#12,.F.);
#235=ADVANCED_FACE('',(#205,#206),#13,.T.);
#236=ADVANCED_FACE('',(#207,#208),#221,.T.);
#237=ADVANCED_FACE('',(#209),#222,.T.);
#238=CLOSED_SHELL('',(#223,#224,#225,#226,#227,#228,#229,#230,#231,#232,
#233,#234,#235,#236,#237));
#239=STYLED_ITEM('',(#240),#247);
#240=PRESENTATION_STYLE_ASSIGNMENT((#241));
#241=SURFACE_STYLE_USAGE(.BOTH.,#242);
#242=SURFACE_SIDE_STYLE('',(#243));
#243=SURFACE_STYLE_FILL_AREA(#244);
#244=FILL_AREA_STYLE('',(#245));
#245=FILL_AREA_STYLE_COLOUR('',#246);
#246=COLOUR_RGB('',0.262745098039216,0.282352941176471,0.301960784313725);
#247=MANIFOLD_SOLID_BREP('piece2',#238);
#248=SHAPE_DEFINITION_REPRESENTATION(#404,#249);
#249=SHAPE_REPRESENTATION('piece2',(#250),#399);
#250=AXIS2_PLACEMENT_3D('',#334,#270,#271);
#251=AXIS2_PLACEMENT_3D('',#335,#272,#273);
#252=AXIS2_PLACEMENT_3D('',#344,#278,#279);
#253=AXIS2_PLACEMENT_3D('',#350,#283,#284);
#254=AXIS2_PLACEMENT_3D('',#356,#288,#289);
#255=AXIS2_PLACEMENT_3D('',#359,#292,#293);
#256=AXIS2_PLACEMENT_3D('',#360,#294,#295);
#257=AXIS2_PLACEMENT_3D('',#369,#300,#301);
#258=AXIS2_PLACEMENT_3D('',#375,#305,#306);
#259=AXIS2_PLACEMENT_3D('',#379,#309,#310);
#260=AXIS2_PLACEMENT_3D('',#383,#313,#314);
#261=AXIS2_PLACEMENT_3D('',#385,#316,#317);
#262=AXIS2_PLACEMENT_3D('',#386,#318,#319);
#263=AXIS2_PLACEMENT_3D('',#388,#320,#321);
#264=AXIS2_PLACEMENT_3D('',#389,#322,#323);
#265=AXIS2_PLACEMENT_3D('',#391,#324,#325);
#266=AXIS2_PLACEMENT_3D('',#393,#326,#327);
#267=AXIS2_PLACEMENT_3D('',#394,#328,#329);
#268=AXIS2_PLACEMENT_3D('',#396,#330,#331);
#269=AXIS2_PLACEMENT_3D('',#397,#332,#333);
#270=DIRECTION('',(0.,0.,1.));
#271=DIRECTION('',(1.,0.,0.));
#272=DIRECTION('',(0.451271367769023,-1.83834778666417E-16,0.892386773003654));
#273=DIRECTION('',(0.892386773003654,0.,-0.451271367769023));
#274=DIRECTION('',(-8.29593720123099E-17,-1.,-1.64051724899965E-16));
#275=DIRECTION('',(0.892386773003654,0.,-0.451271367769023));
#276=DIRECTION('',(-8.29593720123099E-17,-1.,-1.64051724899965E-16));
#277=DIRECTION('',(0.892386773003654,0.,-0.451271367769023));
#278=DIRECTION('',(-0.0829167488725261,-0.982974817620901,-0.163967437863642));
#279=DIRECTION('',(0.,0.164534014451918,-0.986371409808869));
#280=DIRECTION('',(-0.44358839043029,0.183740327427478,-0.877193725440571));
#281=DIRECTION('',(0.892386773003654,0.,-0.451271367769023));
#282=DIRECTION('',(-0.44358839043029,0.183740327427478,-0.877193725440571));
#283=DIRECTION('',(0.451271367769023,-1.59027969662817E-16,0.892386773003654));
#284=DIRECTION('',(0.892386773003654,0.,-0.451271367769023));
#285=DIRECTION('',(-3.52399866291126E-16,-1.,7.73798414655916E-33));
#286=DIRECTION('',(0.892386773003654,0.,-0.451271367769023));
#287=DIRECTION('',(-3.52399866291126E-16,-1.,7.73798414655916E-33));
#288=DIRECTION('',(0.082916748872526,-0.982974817620901,0.163967437863642));
#289=DIRECTION('',(0.,-0.164534014451918,-0.986371409808869));
#290=DIRECTION('',(-0.44358839043029,-0.183740327427477,-0.877193725440571));
#291=DIRECTION('',(-0.44358839043029,-0.183740327427477,-0.877193725440571));
#292=DIRECTION('',(-0.892386773003654,0.,0.451271367769023));
#293=DIRECTION('',(0.,-1.,0.));
#294=DIRECTION('',(-0.892386773003654,0.,0.451271367769023));
#295=DIRECTION('',(0.,-1.,0.));
#296=DIRECTION('',(-0.44358839043029,-0.183740327427477,-0.877193725440571));
#297=DIRECTION('',(0.,1.,0.));
#298=DIRECTION('',(-0.44358839043029,0.183740327427477,-0.877193725440571));
#299=DIRECTION('',(0.,-1.,0.));
#300=DIRECTION('',(0.451271367769023,0.,0.892386773003654));
#301=DIRECTION('',(0.892386773003654,0.,-0.451271367769023));
#302=DIRECTION('',(-0.892386773003654,0.,0.451271367769023));
#303=DIRECTION('',(0.,1.,0.));
#304=DIRECTION('',(-0.892386773003654,0.,0.451271367769023));
#305=DIRECTION('',(-0.0829167488725259,0.982974817620901,-0.163967437863642));
#306=DIRECTION('',(0.,0.164534014451918,0.986371409808869));
#307=DIRECTION('',(-0.892386773003654,0.,0.451271367769023));
#308=DIRECTION('',(-0.44358839043029,-0.183740327427477,-0.877193725440571));
#309=DIRECTION('',(-0.451271367769023,0.,-0.892386773003654));
#310=DIRECTION('',(-0.892386773003654,0.,0.451271367769023));
#311=DIRECTION('',(-0.892386773003654,0.,0.451271367769023));
#312=DIRECTION('',(0.,-1.,0.));
#313=DIRECTION('',(0.0829167488725259,0.982974817620901,0.163967437863642));
#314=DIRECTION('',(0.,-0.164534014451918,0.986371409808869));
#315=DIRECTION('',(-0.44358839043029,0.183740327427477,-0.877193725440571));
#316=DIRECTION('',(0.892386773003654,0.,-0.451271367769023));
#317=DIRECTION('',(0.,1.,0.));
#318=DIRECTION('',(0.892386773003654,0.,-0.451271367769023));
#319=DIRECTION('',(-0.451271367769023,0.,-0.892386773003654));
#320=DIRECTION('',(-0.892386773003654,0.,0.451271367769023));
#321=DIRECTION('',(0.451271367769023,0.,0.892386773003654));
#322=DIRECTION('',(0.892386773003654,0.,-0.451271367769023));
#323=DIRECTION('',(-0.451271367769023,0.,-0.892386773003654));
#324=DIRECTION('',(0.892386773003654,0.,-0.451271367769023));
#325=DIRECTION('',(-0.451271367769023,0.,-0.892386773003654));
#326=DIRECTION('',(-0.892386773003654,0.,0.451271367769023));
#327=DIRECTION('',(0.451271367769023,0.,0.892386773003654));
#328=DIRECTION('',(0.892386773003654,0.,-0.451271367769023));
#329=DIRECTION('',(-0.451271367769023,0.,-0.892386773003654));
#330=DIRECTION('',(0.892386773003654,0.,-0.451271367769023));
#331=DIRECTION('',(0.,1.,0.));
#332=DIRECTION('',(0.892386773003654,0.,-0.451271367769023));
#333=DIRECTION('',(0.,1.,0.));
#334=CARTESIAN_POINT('',(0.,0.,0.));
#335=CARTESIAN_POINT('',(-0.0826574586564449,2.08166817117217E-17,0.0588769070516535));
#336=CARTESIAN_POINT('',(-0.0813188784969395,2.08166817117217E-17,0.0582));
#337=CARTESIAN_POINT('',(-0.0813188784969395,0.0336833823504021,0.0582));
#338=CARTESIAN_POINT('',(-0.0813188784969395,-0.0336833823504021,0.0582));
#339=CARTESIAN_POINT('',(-0.0826574586564449,0.0336833823504021,0.0588769070516535));
#340=CARTESIAN_POINT('',(-0.0826574586564449,0.0336833823504021,0.0588769070516535));
#341=CARTESIAN_POINT('',(-0.0826574586564449,2.08166817117217E-17,0.0588769070516535));
#342=CARTESIAN_POINT('',(-0.0826574586564449,-0.0336833823504021,0.0588769070516535));
#343=CARTESIAN_POINT('',(-0.0826574586564449,-0.0336833823504021,0.0588769070516535));
#344=CARTESIAN_POINT('',(-0.0895348472365125,0.036532089973976,0.0452769070516535));
#345=CARTESIAN_POINT('',(-0.0881962670770071,0.036532089973976,0.0446));
#346=CARTESIAN_POINT('',(-0.0950736556570747,0.0393807975975499,0.031));
#347=CARTESIAN_POINT('',(-0.0964122358165801,0.0393807975975499,0.0316769070516535));
#348=CARTESIAN_POINT('',(-0.0964122358165801,0.0393807975975499,0.0316769070516535));
#349=CARTESIAN_POINT('',(-0.0895348472365125,0.036532089973976,0.0452769070516535));
#350=CARTESIAN_POINT('',(-0.0964122358165802,2.08166817117217E-17,0.0316769070516535));
#351=CARTESIAN_POINT('',(-0.0950736556570747,2.08166817117217E-17,0.031));
#352=CARTESIAN_POINT('',(-0.0950736556570747,-0.0393807975975499,0.031));
#353=CARTESIAN_POINT('',(-0.0964122358165801,-0.0393807975975499,0.0316769070516535));
#354=CARTESIAN_POINT('',(-0.0964122358165801,-0.0393807975975499,0.0316769070516535));
#355=CARTESIAN_POINT('',(-0.0964122358165802,2.08166817117217E-17,0.0316769070516535));
#356=CARTESIAN_POINT('',(-0.0895348472365125,-0.036532089973976,0.0452769070516535));
#357=CARTESIAN_POINT('',(-0.0881962670770071,-0.036532089973976,0.0446));
#358=CARTESIAN_POINT('',(-0.0895348472365125,-0.036532089973976,0.0452769070516535));
#359=CARTESIAN_POINT('',(-0.0895348472365125,1.38777878078145E-17,0.0452769070516535));
#360=CARTESIAN_POINT('',(-0.088196267077007,1.38777878078145E-17,0.0446));
#361=CARTESIAN_POINT('',(-0.0884264602445152,-0.033803158968772,0.0441447942134337));
#362=CARTESIAN_POINT('',(-0.0825933952573947,-0.0313870243409029,0.055679649762349));
#363=CARTESIAN_POINT('',(-0.0942595252316358,-0.0362192935966409,0.0326099386645185));
#364=CARTESIAN_POINT('',(-0.0825933952573947,1.38777878078145E-17,0.055679649762349));
#365=CARTESIAN_POINT('',(-0.0825933952573947,0.031387024340903,0.055679649762349));
#366=CARTESIAN_POINT('',(-0.0884264602445152,0.033803158968772,0.0441447942134337));
#367=CARTESIAN_POINT('',(-0.0942595252316358,0.036219293596641,0.0326099386645185));
#368=CARTESIAN_POINT('',(-0.0942595252316358,1.38777878078145E-17,0.0326099386645185));
#369=CARTESIAN_POINT('',(-0.076792881232871,1.38777878078145E-17,0.0527463858718503));
#370=CARTESIAN_POINT('',(-0.076792881232871,-0.0313870243409029,0.0527463858718503));
#371=CARTESIAN_POINT('',(-0.076792881232871,-0.0313870243409029,0.0527463858718503));
#372=CARTESIAN_POINT('',(-0.076792881232871,1.38777878078145E-17,0.0527463858718503));
#373=CARTESIAN_POINT('',(-0.076792881232871,0.031387024340903,0.0527463858718503));
#374=CARTESIAN_POINT('',(-0.076792881232871,0.031387024340903,0.0527463858718503));
#375=CARTESIAN_POINT('',(-0.0826259462199915,-0.033803158968772,0.041211530322935));
#376=CARTESIAN_POINT('',(-0.088459011207112,-0.0362192935966409,0.0296766747740198));
#377=CARTESIAN_POINT('',(-0.088459011207112,-0.0362192935966409,0.0296766747740198));
#378=CARTESIAN_POINT('',(-0.0826259462199915,-0.033803158968772,0.041211530322935));
#379=CARTESIAN_POINT('',(-0.088459011207112,1.38777878078145E-17,0.0296766747740198));
#380=CARTESIAN_POINT('',(-0.088459011207112,0.036219293596641,0.0296766747740198));
#381=CARTESIAN_POINT('',(-0.088459011207112,0.036219293596641,0.0296766747740198));
#382=CARTESIAN_POINT('',(-0.088459011207112,1.38777878078145E-17,0.0296766747740198));
#383=CARTESIAN_POINT('',(-0.0826259462199915,0.033803158968772,0.041211530322935));
#384=CARTESIAN_POINT('',(-0.0826259462199915,0.033803158968772,0.041211530322935));
#385=CARTESIAN_POINT('',(-0.0823957530524833,6.93889390390723E-18,0.0416667361095013));
#386=CARTESIAN_POINT('',(-0.0823957530524833,0.,0.0416667361095014));
#387=CARTESIAN_POINT('',(-0.0860059239946355,0.,0.0345276419254722));
#388=CARTESIAN_POINT('',(-0.0815033662794796,0.,0.0412154647417323));
#389=CARTESIAN_POINT('',(-0.0815033662794796,0.,0.0412154647417323));
#390=CARTESIAN_POINT('',(-0.0842109944860937,0.,0.0358611441037104));
#391=CARTESIAN_POINT('',(-0.0868576869175015,0.,0.0439230929483465));
#392=CARTESIAN_POINT('',(-0.0895653151241156,0.,0.0385687723103246));
#393=CARTESIAN_POINT('',(-0.0815033662794796,0.,0.0412154647417323));
#394=CARTESIAN_POINT('',(-0.0815033662794796,0.,0.0412154647417323));
#395=CARTESIAN_POINT('',(-0.0851135372216318,0.,0.0340763705577031));
#396=CARTESIAN_POINT('',(-0.0817335594469879,1.38777878078145E-17,0.0407602589551661));
#397=CARTESIAN_POINT('',(-0.0868576869175016,6.93889390390723E-18,0.0439230929483465));
#398=MECHANICAL_DESIGN_GEOMETRIC_PRESENTATION_REPRESENTATION('',(#239),
#399);
#399=(
GEOMETRIC_REPRESENTATION_CONTEXT(3)
GLOBAL_UNCERTAINTY_ASSIGNED_CONTEXT((#400))
GLOBAL_UNIT_ASSIGNED_CONTEXT((#403,#402,#401))
REPRESENTATION_CONTEXT('piece2','TOP_LEVEL_ASSEMBLY_PART')
);
#400=UNCERTAINTY_MEASURE_WITH_UNIT(LENGTH_MEASURE(1.E-8),#403,
'DISTANCE_ACCURACY_VALUE','Maximum Tolerance applied to model');
#401=(
NAMED_UNIT(*)
SI_UNIT($,.STERADIAN.)
SOLID_ANGLE_UNIT()
);
#402=(
NAMED_UNIT(*)
PLANE_ANGLE_UNIT()
SI_UNIT($,.RADIAN.)
);
#403=(
LENGTH_UNIT()
NAMED_UNIT(*)
SI_UNIT($,.METRE.)
);
#404=PRODUCT_DEFINITION_SHAPE('','',#405);
#405=PRODUCT_DEFINITION('','',#407,#406);
#406=PRODUCT_DEFINITION_CONTEXT('',#413,'design');
#407=PRODUCT_DEFINITION_FORMATION_WITH_SPECIFIED_SOURCE('','',#409,
 .NOT_KNOWN.);
#408=PRODUCT_RELATED_PRODUCT_CATEGORY('','',(#409));
#409=PRODUCT('piece2','piece2','piece2',(#411));
#410=PRODUCT_CATEGORY('','');
#411=PRODUCT_CONTEXT('',#413,'mechanical');
#412=APPLICATION_PROTOCOL_DEFINITION('international standard',
'ap242_managed_model_based_3d_engineering',2011,#413);
#413=APPLICATION_CONTEXT('managed model based 3d engineering');
ENDSEC;
END-ISO-10303-21;
